ISO-10303-21;
HEADER;
FILE_DESCRIPTION (( 'STEP AP203' ),
    '1' );
FILE_NAME ('QM-AAHWP-10-450-650-M.STEP',
    '2021-01-05T02:32:14',
    ( '' ),
    ( '' ),
    'SwSTEP 2.0',
    'SolidWorks 2020',
    '' );
FILE_SCHEMA (( 'CONFIG_CONTROL_DESIGN' ));
ENDSEC;

DATA;
#1 = ORIENTED_EDGE ( 'NONE', *, *, #127, .F. ) ;
#2 = CIRCLE ( 'NONE', #15, 12.69999999999999929 ) ;
#3 = DIRECTION ( 'NONE',  ( -1.000000000000000000, -0.000000000000000000, -0.000000000000000000 ) ) ;
#4 = LINE ( 'NONE', #264, #121 ) ;
#5 = DATE_AND_TIME ( #18, #136 ) ;
#6 = DIRECTION ( 'NONE',  ( -1.000000000000000000, -0.000000000000000000, -0.000000000000000000 ) ) ;
#7 = AXIS2_PLACEMENT_3D ( 'NONE', #115, #221, #194 ) ;
#8 = ORIENTED_EDGE ( 'NONE', *, *, #91, .F. ) ;
#9 = PERSON_AND_ORGANIZATION ( #77, #219 ) ;
#10 = DIRECTION ( 'NONE',  ( -1.000000000000000000, -0.000000000000000000, -0.000000000000000000 ) ) ;
#11 = APPROVAL ( #44, 'UNSPECIFIED' ) ;
#12 = CARTESIAN_POINT ( 'NONE',  ( -3.000000000000000000, 0.000000000000000000, 0.000000000000000000 ) ) ;
#13 = ORIENTED_EDGE ( 'NONE', *, *, #271, .T. ) ;
#14 = DIRECTION ( 'NONE',  ( 0.000000000000000000, 0.000000000000000000, 1.000000000000000000 ) ) ;
#15 = AXIS2_PLACEMENT_3D ( 'NONE', #140, #117, #17 ) ;
#16 =( LENGTH_UNIT ( ) NAMED_UNIT ( * ) SI_UNIT ( .MILLI., .METRE. ) );
#17 = DIRECTION ( 'NONE',  ( 0.000000000000000000, 0.000000000000000000, 1.000000000000000000 ) ) ;
#18 = CALENDAR_DATE ( 2021, 5, 1 ) ;
#19 = CARTESIAN_POINT ( 'NONE',  ( -3.000000000000000000, 0.000000000000000000, 12.69999999999999929 ) ) ;
#20 = CC_DESIGN_APPROVAL ( #182, ( #300 ) ) ;
#21 = CALENDAR_DATE ( 2021, 5, 1 ) ;
#22 = VERTEX_POINT ( 'NONE', #19 ) ;
#23 = APPROVAL_STATUS ( 'not_yet_approved' ) ;
#24 = DIRECTION ( 'NONE',  ( -1.000000000000000000, -0.000000000000000000, -0.000000000000000000 ) ) ;
#25 = ORIENTED_EDGE ( 'NONE', *, *, #127, .T. ) ;
#26 = CYLINDRICAL_SURFACE ( 'NONE', #67, 5.000000000000000888 ) ;
#27 = AXIS2_PLACEMENT_3D ( 'NONE', #299, #43, #64 ) ;
#28 = CC_DESIGN_PERSON_AND_ORGANIZATION_ASSIGNMENT ( #82, #305, ( #300 ) ) ;
#29 = CARTESIAN_POINT ( 'NONE',  ( -1.614212418857619014, 6.123233995736767268E-16, -5.000000000000000888 ) ) ;
#30 = PERSON_AND_ORGANIZATION ( #77, #219 ) ;
#31 = CARTESIAN_POINT ( 'NONE',  ( -3.000000000000000000, 0.000000000000000000, 0.000000000000000000 ) ) ;
#32 = PRODUCT_DEFINITION_SHAPE ( 'NONE', 'NONE',  #247 ) ;
#33 = CARTESIAN_POINT ( 'NONE',  ( -3.000000000000000000, 0.000000000000000000, 0.000000000000000000 ) ) ;
#34 = CIRCLE ( 'NONE', #73, 5.000000000000000888 ) ;
#35 = ORIENTED_EDGE ( 'NONE', *, *, #314, .T. ) ;
#36 = CC_DESIGN_PERSON_AND_ORGANIZATION_ASSIGNMENT ( #324, #142, ( #179 ) ) ;
#37 = DIRECTION ( 'NONE',  ( -1.000000000000000000, 0.000000000000000000, -0.000000000000000000 ) ) ;
#38 = ORIENTED_EDGE ( 'NONE', *, *, #271, .F. ) ;
#39 = CIRCLE ( 'NONE', #335, 5.000000000000000000 ) ;
#40 = LOCAL_TIME ( 10, 32, 14.00000000000000000, #263 ) ;
#41 = DIRECTION ( 'NONE',  ( 1.000000000000000000, 0.000000000000000000, 0.000000000000000000 ) ) ;
#42 = PRODUCT_RELATED_PRODUCT_CATEGORY ( 'detail', '', ( #179 ) ) ;
#43 = DIRECTION ( 'NONE',  ( -1.000000000000000000, -0.000000000000000000, -0.000000000000000000 ) ) ;
#44 = APPROVAL_STATUS ( 'not_yet_approved' ) ;
#45 = EDGE_LOOP ( 'NONE', ( #143, #13, #70, #205 ) ) ;
#46 = PLANE ( 'NONE',  #328 ) ;
#47 = EDGE_LOOP ( 'NONE', ( #125, #38 ) ) ;
#48 = VERTEX_POINT ( 'NONE', #177 ) ;
#49 = EDGE_CURVE ( 'NONE', #75, #255, #39, .T. ) ;
#50 = AXIS2_PLACEMENT_3D ( 'NONE', #66, #63, #272 ) ;
#51 = ORIENTED_EDGE ( 'NONE', *, *, #165, .T. ) ;
#52 = CIRCLE ( 'NONE', #50, 5.000000000000000888 ) ;
#53 = DATE_TIME_ROLE ( 'creation_date' ) ;
#54 = FACE_OUTER_BOUND ( 'NONE', #203, .T. ) ;
#55 = ADVANCED_FACE ( 'NONE', ( #257 ), #26, .F. ) ;
#56 = LINE ( 'NONE', #29, #242 ) ;
#57 = ORIENTED_EDGE ( 'NONE', *, *, #153, .F. ) ;
#58 = DIRECTION ( 'NONE',  ( -1.000000000000000000, -0.000000000000000000, -0.000000000000000000 ) ) ;
#59 = DIRECTION ( 'NONE',  ( 0.000000000000000000, 0.000000000000000000, 1.000000000000000000 ) ) ;
#60 = CARTESIAN_POINT ( 'NONE',  ( -1.614212418857619014, 0.000000000000000000, 5.000000000000000888 ) ) ;
#61 = EDGE_CURVE ( 'NONE', #178, #256, #174, .T. ) ;
#62 = VECTOR ( 'NONE', #133, 1000.000000000000000 ) ;
#63 = DIRECTION ( 'NONE',  ( 1.000000000000000000, 0.000000000000000000, 0.000000000000000000 ) ) ;
#64 = DIRECTION ( 'NONE',  ( 0.000000000000000000, 0.000000000000000000, 1.000000000000000000 ) ) ;
#65 = DIRECTION ( 'NONE',  ( -1.000000000000000000, -0.000000000000000000, -0.000000000000000000 ) ) ;
#66 = CARTESIAN_POINT ( 'NONE',  ( -0.5000000000000002220, 0.000000000000000000, 0.000000000000000000 ) ) ;
#67 = AXIS2_PLACEMENT_3D ( 'NONE', #126, #307, #232 ) ;
#68 = APPROVAL_PERSON_ORGANIZATION ( #180, #222, #251 ) ;
#69 = EDGE_CURVE ( 'NONE', #100, #214, #190, .T. ) ;
#70 = ORIENTED_EDGE ( 'NONE', *, *, #153, .T. ) ;
#71 = CARTESIAN_POINT ( 'NONE',  ( 0.5000000000000004441, 0.000000000000000000, 0.000000000000000000 ) ) ;
#72 = AXIS2_PLACEMENT_3D ( 'NONE', #33, #293, #14 ) ;
#73 = AXIS2_PLACEMENT_3D ( 'NONE', #88, #41, #198 ) ;
#74 = APPLICATION_PROTOCOL_DEFINITION ( 'international standard', 'config_control_design', 1994, #89 ) ;
#75 = VERTEX_POINT ( 'NONE', #331 ) ;
#76 = ORIENTED_EDGE ( 'NONE', *, *, #244, .T. ) ;
#77 = PERSON ( 'UNSPECIFIED', 'UNSPECIFIED', 'UNSPECIFIED', ('UNSPECIFIED'), ('UNSPECIFIED'), ('UNSPECIFIED') ) ;
#78 = ORIENTED_EDGE ( 'NONE', *, *, #209, .T. ) ;
#79 = ADVANCED_FACE ( 'NONE', ( #279 ), #46, .F. ) ;
#80 = CC_DESIGN_APPROVAL ( #11, ( #329 ) ) ;
#81 = LINE ( 'NONE', #286, #101 ) ;
#82 = PERSON_AND_ORGANIZATION ( #77, #219 ) ;
#83 = CARTESIAN_POINT ( 'NONE',  ( 0.5000000000000002220, 5.000000000000000000, 0.000000000000000000 ) ) ;
#84 = CARTESIAN_POINT ( 'NONE',  ( -3.000000000000000000, 6.123233995736766282E-16, -5.000000000000000000 ) ) ;
#85 = EDGE_LOOP ( 'NONE', ( #283, #148 ) ) ;
#86 = DIRECTION ( 'NONE',  ( 0.000000000000000000, 0.000000000000000000, 1.000000000000000000 ) ) ;
#87 = DIRECTION ( 'NONE',  ( 0.000000000000000000, 0.000000000000000000, -1.000000000000000000 ) ) ;
#88 = CARTESIAN_POINT ( 'NONE',  ( -0.5000000000000002220, 0.000000000000000000, 0.000000000000000000 ) ) ;
#89 = APPLICATION_CONTEXT ( 'configuration controlled 3d designs of mechanical parts and assemblies' ) ;
#90 = FACE_BOUND ( 'NONE', #229, .T. ) ;
#91 = EDGE_CURVE ( 'NONE', #237, #255, #56, .T. ) ;
#92 = PLANE ( 'NONE',  #139 ) ;
#93 = CARTESIAN_POINT ( 'NONE',  ( 3.000000000000000000, 0.000000000000000000, 0.000000000000000000 ) ) ;
#94 = CIRCLE ( 'NONE', #72, 12.69999999999999929 ) ;
#95 = LOCAL_TIME ( 10, 32, 14.00000000000000000, #260 ) ;
#96 = ORIENTED_EDGE ( 'NONE', *, *, #165, .F. ) ;
#97 = APPROVAL_ROLE ( '' ) ;
#98 = ORIENTED_EDGE ( 'NONE', *, *, #49, .F. ) ;
#99 = EDGE_CURVE ( 'NONE', #22, #256, #94, .T. ) ;
#100 = VERTEX_POINT ( 'NONE', #268 ) ;
#101 = VECTOR ( 'NONE', #58, 1000.000000000000000 ) ;
#102 = EDGE_LOOP ( 'NONE', ( #25, #152 ) ) ;
#103 = ORIENTED_EDGE ( 'NONE', *, *, #167, .F. ) ;
#104 = CARTESIAN_POINT ( 'NONE',  ( -1.614212418857619014, 0.000000000000000000, 5.000000000000000888 ) ) ;
#105 = AXIS2_PLACEMENT_3D ( 'NONE', #12, #151, #235 ) ;
#106 = DATE_AND_TIME ( #215, #114 ) ;
#107 = DIRECTION ( 'NONE',  ( 0.000000000000000000, 0.000000000000000000, 1.000000000000000000 ) ) ;
#108 = PERSON_AND_ORGANIZATION_ROLE ( 'creator' ) ;
#109 = DIRECTION ( 'NONE',  ( 1.000000000000000000, 0.000000000000000000, 0.000000000000000000 ) ) ;
#110 = ORIENTED_EDGE ( 'NONE', *, *, #61, .T. ) ;
#111 = FACE_OUTER_BOUND ( 'NONE', #85, .T. ) ;
#112 = CIRCLE ( 'NONE', #265, 5.000000000000001776 ) ;
#113 = DIRECTION ( 'NONE',  ( -0.000000000000000000, 0.000000000000000000, 1.000000000000000000 ) ) ;
#114 = LOCAL_TIME ( 10, 32, 14.00000000000000000, #285 ) ;
#115 = CARTESIAN_POINT ( 'NONE',  ( 0.000000000000000000, 0.000000000000000000, 0.000000000000000000 ) ) ;
#116 = DIRECTION ( 'NONE',  ( 1.000000000000000000, 0.000000000000000000, 0.000000000000000000 ) ) ;
#117 = DIRECTION ( 'NONE',  ( -1.000000000000000000, -0.000000000000000000, -0.000000000000000000 ) ) ;
#118 = ADVANCED_FACE ( 'NONE', ( #111, #156 ), #239, .F. ) ;
#119 = PERSON_AND_ORGANIZATION_ROLE ( 'classification_officer' ) ;
#120 = ORIENTED_EDGE ( 'NONE', *, *, #61, .F. ) ;
#121 = VECTOR ( 'NONE', #311, 1000.000000000000000 ) ;
#122 = VERTEX_POINT ( 'NONE', #193 ) ;
#123 = APPROVAL_STATUS ( 'not_yet_approved' ) ;
#124 = ORIENTED_EDGE ( 'NONE', *, *, #212, .T. ) ;
#125 = ORIENTED_EDGE ( 'NONE', *, *, #292, .F. ) ;
#126 = CARTESIAN_POINT ( 'NONE',  ( -1.614212418857619014, 0.000000000000000000, 0.000000000000000000 ) ) ;
#127 = EDGE_CURVE ( 'NONE', #48, #237, #112, .T. ) ;
#128 = DIRECTION ( 'NONE',  ( 0.000000000000000000, 0.000000000000000000, 1.000000000000000000 ) ) ;
#129 = SECURITY_CLASSIFICATION_LEVEL ( 'unclassified' ) ;
#130 = CYLINDRICAL_SURFACE ( 'NONE', #160, 5.000000000000000888 ) ;
#131 = APPROVAL_DATE_TIME ( #225, #11 ) ;
#132 = CARTESIAN_POINT ( 'NONE',  ( -0.5000000000000002220, 5.000000000000000000, 0.000000000000000000 ) ) ;
#133 = DIRECTION ( 'NONE',  ( -1.000000000000000000, -0.000000000000000000, -0.000000000000000000 ) ) ;
#134 = ORIENTED_EDGE ( 'NONE', *, *, #209, .F. ) ;
#135 = DIRECTION ( 'NONE',  ( -1.000000000000000000, -0.000000000000000000, -0.000000000000000000 ) ) ;
#136 = LOCAL_TIME ( 10, 32, 14.00000000000000000, #301 ) ;
#137 =( NAMED_UNIT ( * ) PLANE_ANGLE_UNIT ( ) SI_UNIT ( $, .RADIAN. ) );
#138 = DIRECTION ( 'NONE',  ( 0.000000000000000000, 0.000000000000000000, -1.000000000000000000 ) ) ;
#139 = AXIS2_PLACEMENT_3D ( 'NONE', #296, #116, #138 ) ;
#140 = CARTESIAN_POINT ( 'NONE',  ( 3.000000000000000000, 0.000000000000000000, 0.000000000000000000 ) ) ;
#141 = CC_DESIGN_DATE_AND_TIME_ASSIGNMENT ( #234, #303, ( #329 ) ) ;
#142 = PERSON_AND_ORGANIZATION_ROLE ( 'design_owner' ) ;
#143 = ORIENTED_EDGE ( 'NONE', *, *, #212, .F. ) ;
#144 = ORIENTED_EDGE ( 'NONE', *, *, #99, .T. ) ;
#145 = ORIENTED_EDGE ( 'NONE', *, *, #99, .F. ) ;
#146 = DIRECTION ( 'NONE',  ( 0.000000000000000000, 0.000000000000000000, 1.000000000000000000 ) ) ;
#147 = ADVANCED_FACE ( 'NONE', ( #218 ), #130, .F. ) ;
#148 = ORIENTED_EDGE ( 'NONE', *, *, #314, .F. ) ;
#149 = CYLINDRICAL_SURFACE ( 'NONE', #290, 12.69999999999999929 ) ;
#150 = DATE_AND_TIME ( #202, #95 ) ;
#151 = DIRECTION ( 'NONE',  ( -1.000000000000000000, -0.000000000000000000, -0.000000000000000000 ) ) ;
#152 = ORIENTED_EDGE ( 'NONE', *, *, #173, .T. ) ;
#153 = EDGE_CURVE ( 'NONE', #122, #100, #183, .T. ) ;
#154 = APPLICATION_CONTEXT ( 'configuration controlled 3d designs of mechanical parts and assemblies' ) ;
#155 = CIRCLE ( 'NONE', #312, 5.000000000000000000 ) ;
#156 = FACE_BOUND ( 'NONE', #102, .T. ) ;
#157 = CYLINDRICAL_SURFACE ( 'NONE', #323, 12.69999999999999929 ) ;
#158 = MANIFOLD_SOLID_BREP ( 'Ðý×', #236 ) ;
#159 = DIRECTION ( 'NONE',  ( -1.000000000000000000, -0.000000000000000000, -0.000000000000000000 ) ) ;
#160 = AXIS2_PLACEMENT_3D ( 'NONE', #240, #238, #107 ) ;
#161 = MECHANICAL_CONTEXT ( 'NONE', #154, 'mechanical' ) ;
#162 = EDGE_CURVE ( 'NONE', #214, #100, #298, .T. ) ;
#163 = CC_DESIGN_SECURITY_CLASSIFICATION ( #329, ( #300 ) ) ;
#164 = APPLICATION_PROTOCOL_DEFINITION ( 'international standard', 'config_control_design', 1994, #154 ) ;
#165 = EDGE_CURVE ( 'NONE', #48, #75, #318, .T. ) ;
#166 = CARTESIAN_POINT ( 'NONE',  ( 3.000000000000000000, 0.000000000000000000, 12.69999999999999929 ) ) ;
#167 = EDGE_CURVE ( 'NONE', #256, #22, #274, .T. ) ;
#168 = CYLINDRICAL_SURFACE ( 'NONE', #175, 5.000000000000000888 ) ;
#169 = AXIS2_PLACEMENT_3D ( 'NONE', #83, #37, #185 ) ;
#170 = PERSON_AND_ORGANIZATION ( #77, #219 ) ;
#171 = EDGE_LOOP ( 'NONE', ( #98, #230 ) ) ;
#172 = PERSON_AND_ORGANIZATION ( #77, #219 ) ;
#173 = EDGE_CURVE ( 'NONE', #237, #48, #249, .T. ) ;
#174 = LINE ( 'NONE', #277, #270 ) ;
#175 = AXIS2_PLACEMENT_3D ( 'NONE', #248, #200, #223 ) ;
#176 = ORIENTED_EDGE ( 'NONE', *, *, #321, .T. ) ;
#177 = CARTESIAN_POINT ( 'NONE',  ( 3.000000000000000000, 0.000000000000000000, 5.000000000000001776 ) ) ;
#178 = VERTEX_POINT ( 'NONE', #317 ) ;
#179 = PRODUCT ( 'QM-AAHWP-10-450-650-M', 'QM-AAHWP-10-450-650-M', '', ( #161 ) ) ;
#180 = PERSON_AND_ORGANIZATION ( #77, #219 ) ;
#181 = LOCAL_TIME ( 10, 32, 14.00000000000000000, #211 ) ;
#182 = APPROVAL ( #123, 'UNSPECIFIED' ) ;
#183 = LINE ( 'NONE', #104, #62 ) ;
#184 = SHAPE_DEFINITION_REPRESENTATION ( #32, #243 ) ;
#185 = DIRECTION ( 'NONE',  ( -0.000000000000000000, 0.000000000000000000, 1.000000000000000000 ) ) ;
#186 = ORIENTED_EDGE ( 'NONE', *, *, #162, .T. ) ;
#187 = CARTESIAN_POINT ( 'NONE',  ( -1.614212418857619014, 0.000000000000000000, 0.000000000000000000 ) ) ;
#188 = CC_DESIGN_PERSON_AND_ORGANIZATION_ASSIGNMENT ( #9, #108, ( #247 ) ) ;
#189 = ORIENTED_EDGE ( 'NONE', *, *, #49, .T. ) ;
#190 = CIRCLE ( 'NONE', #282, 5.000000000000000000 ) ;
#191 = AXIS2_PLACEMENT_3D ( 'NONE', #93, #159, #269 ) ;
#192 = CARTESIAN_POINT ( 'NONE',  ( 3.000000000000000000, 0.000000000000000000, 0.000000000000000000 ) ) ;
#193 = CARTESIAN_POINT ( 'NONE',  ( -0.5000000000000002220, 0.000000000000000000, 5.000000000000000888 ) ) ;
#194 = DIRECTION ( 'NONE',  ( 1.000000000000000000, 0.000000000000000000, 0.000000000000000000 ) ) ;
#195 = CC_DESIGN_PERSON_AND_ORGANIZATION_ASSIGNMENT ( #313, #119, ( #329 ) ) ;
#196 = CC_DESIGN_APPROVAL ( #222, ( #247 ) ) ;
#197 = DIRECTION ( 'NONE',  ( 0.000000000000000000, 0.000000000000000000, 1.000000000000000000 ) ) ;
#198 = DIRECTION ( 'NONE',  ( 0.000000000000000000, 0.000000000000000000, -1.000000000000000000 ) ) ;
#199 = ADVANCED_FACE ( 'NONE', ( #291 ), #157, .T. ) ;
#200 = DIRECTION ( 'NONE',  ( -1.000000000000000000, -0.000000000000000000, -0.000000000000000000 ) ) ;
#201 = ORIENTED_EDGE ( 'NONE', *, *, #91, .T. ) ;
#202 = CALENDAR_DATE ( 2021, 5, 1 ) ;
#203 = EDGE_LOOP ( 'NONE', ( #176, #110, #145, #134 ) ) ;
#204 = APPROVAL_DATE_TIME ( #5, #182 ) ;
#205 = ORIENTED_EDGE ( 'NONE', *, *, #69, .T. ) ;
#206 = AXIS2_PLACEMENT_3D ( 'NONE', #31, #220, #86 ) ;
#207 = EDGE_LOOP ( 'NONE', ( #8, #1, #51, #189 ) ) ;
#208 = ORIENTED_EDGE ( 'NONE', *, *, #173, .F. ) ;
#209 = EDGE_CURVE ( 'NONE', #280, #22, #4, .T. ) ;
#210 = CARTESIAN_POINT ( 'NONE',  ( 3.000000000000000000, 0.000000000000000000, 0.000000000000000000 ) ) ;
#211 = COORDINATED_UNIVERSAL_TIME_OFFSET ( 8, 0, .AHEAD. ) ;
#212 = EDGE_CURVE ( 'NONE', #316, #214, #81, .T. ) ;
#213 = DIRECTION ( 'NONE',  ( -1.000000000000000000, -0.000000000000000000, -0.000000000000000000 ) ) ;
#214 = VERTEX_POINT ( 'NONE', #84 ) ;
#215 = CALENDAR_DATE ( 2021, 5, 1 ) ;
#216 = ADVANCED_FACE ( 'NONE', ( #54 ), #149, .T. ) ;
#217 = DIRECTION ( 'NONE',  ( 0.000000000000000000, 0.000000000000000000, 1.000000000000000000 ) ) ;
#218 = FACE_OUTER_BOUND ( 'NONE', #207, .T. ) ;
#219 = ORGANIZATION ( 'UNSPECIFIED', 'UNSPECIFIED', '' ) ;
#220 = DIRECTION ( 'NONE',  ( -1.000000000000000000, -0.000000000000000000, -0.000000000000000000 ) ) ;
#221 = DIRECTION ( 'NONE',  ( 0.000000000000000000, 0.000000000000000000, 1.000000000000000000 ) ) ;
#222 = APPROVAL ( #23, 'UNSPECIFIED' ) ;
#223 = DIRECTION ( 'NONE',  ( 0.000000000000000000, 0.000000000000000000, 1.000000000000000000 ) ) ;
#224 = CARTESIAN_POINT ( 'NONE',  ( -0.5000000000000002220, 6.123233995736767268E-16, -5.000000000000000888 ) ) ;
#225 = DATE_AND_TIME ( #21, #40 ) ;
#226 = DIRECTION ( 'NONE',  ( -1.000000000000000000, -0.000000000000000000, -0.000000000000000000 ) ) ;
#227 = APPROVAL_PERSON_ORGANIZATION ( #170, #11, #97 ) ;
#228 = ORIENTED_EDGE ( 'NONE', *, *, #167, .T. ) ;
#229 = EDGE_LOOP ( 'NONE', ( #332, #288 ) ) ;
#230 = ORIENTED_EDGE ( 'NONE', *, *, #244, .F. ) ;
#231 = ADVANCED_FACE ( 'NONE', ( #289 ), #315, .F. ) ;
#232 = DIRECTION ( 'NONE',  ( 0.000000000000000000, 0.000000000000000000, 1.000000000000000000 ) ) ;
#233 = CARTESIAN_POINT ( 'NONE',  ( 3.000000000000000000, 12.69999999999999929, 0.000000000000000000 ) ) ;
#234 = DATE_AND_TIME ( #278, #181 ) ;
#235 = DIRECTION ( 'NONE',  ( 0.000000000000000000, 0.000000000000000000, 1.000000000000000000 ) ) ;
#236 = CLOSED_SHELL ( 'NONE', ( #216, #254, #55, #231, #147, #306, #241, #199, #118, #79 ) ) ;
#237 = VERTEX_POINT ( 'NONE', #246 ) ;
#238 = DIRECTION ( 'NONE',  ( -1.000000000000000000, -0.000000000000000000, -0.000000000000000000 ) ) ;
#239 = PLANE ( 'NONE',  #322 ) ;
#240 = CARTESIAN_POINT ( 'NONE',  ( -1.614212418857619014, 0.000000000000000000, 0.000000000000000000 ) ) ;
#241 = ADVANCED_FACE ( 'NONE', ( #90, #250 ), #92, .F. ) ;
#242 = VECTOR ( 'NONE', #267, 1000.000000000000000 ) ;
#243 = ADVANCED_BREP_SHAPE_REPRESENTATION ( 'QM-AAHWP-10-450-650-M', ( #158, #7 ), #266 ) ;
#244 = EDGE_CURVE ( 'NONE', #255, #75, #155, .T. ) ;
#245 =( NAMED_UNIT ( * ) SI_UNIT ( $, .STERADIAN. ) SOLID_ANGLE_UNIT ( ) );
#246 = CARTESIAN_POINT ( 'NONE',  ( 3.000000000000000000, 6.123233995736768255E-16, -5.000000000000001776 ) ) ;
#247 = PRODUCT_DEFINITION ( 'UNKNOWN', '', #300, #327 ) ;
#248 = CARTESIAN_POINT ( 'NONE',  ( -1.614212418857619014, 0.000000000000000000, 0.000000000000000000 ) ) ;
#249 = CIRCLE ( 'NONE', #253, 5.000000000000001776 ) ;
#250 = FACE_OUTER_BOUND ( 'NONE', #309, .T. ) ;
#251 = APPROVAL_ROLE ( '' ) ;
#252 = ORIENTED_EDGE ( 'NONE', *, *, #292, .T. ) ;
#253 = AXIS2_PLACEMENT_3D ( 'NONE', #210, #259, #59 ) ;
#254 = ADVANCED_FACE ( 'NONE', ( #297 ), #168, .F. ) ;
#255 = VERTEX_POINT ( 'NONE', #326 ) ;
#256 = VERTEX_POINT ( 'NONE', #294 ) ;
#257 = FACE_OUTER_BOUND ( 'NONE', #302, .T. ) ;
#258 = VECTOR ( 'NONE', #6, 1000.000000000000000 ) ;
#259 = DIRECTION ( 'NONE',  ( -1.000000000000000000, -0.000000000000000000, -0.000000000000000000 ) ) ;
#260 = COORDINATED_UNIVERSAL_TIME_OFFSET ( 8, 0, .AHEAD. ) ;
#261 = DIRECTION ( 'NONE',  ( 0.000000000000000000, 0.000000000000000000, 1.000000000000000000 ) ) ;
#262 = CC_DESIGN_PERSON_AND_ORGANIZATION_ASSIGNMENT ( #30, #275, ( #300 ) ) ;
#263 = COORDINATED_UNIVERSAL_TIME_OFFSET ( 8, 0, .AHEAD. ) ;
#264 = CARTESIAN_POINT ( 'NONE',  ( -1.614212418857619014, 0.000000000000000000, 12.69999999999999929 ) ) ;
#265 = AXIS2_PLACEMENT_3D ( 'NONE', #192, #135, #217 ) ;
#266 =( GEOMETRIC_REPRESENTATION_CONTEXT ( 3 ) GLOBAL_UNCERTAINTY_ASSIGNED_CONTEXT ( ( #333 ) ) GLOBAL_UNIT_ASSIGNED_CONTEXT ( ( #16, #137, #245 ) ) REPRESENTATION_CONTEXT ( 'NONE', 'WORKASPACE' ) );
#267 = DIRECTION ( 'NONE',  ( -1.000000000000000000, -0.000000000000000000, -0.000000000000000000 ) ) ;
#268 = CARTESIAN_POINT ( 'NONE',  ( -3.000000000000000000, 0.000000000000000000, 5.000000000000000000 ) ) ;
#269 = DIRECTION ( 'NONE',  ( 0.000000000000000000, 0.000000000000000000, 1.000000000000000000 ) ) ;
#270 = VECTOR ( 'NONE', #226, 1000.000000000000000 ) ;
#271 = EDGE_CURVE ( 'NONE', #316, #122, #52, .T. ) ;
#272 = DIRECTION ( 'NONE',  ( 0.000000000000000000, 0.000000000000000000, -1.000000000000000000 ) ) ;
#273 = CYLINDRICAL_SURFACE ( 'NONE', #27, 5.000000000000000888 ) ;
#274 = CIRCLE ( 'NONE', #206, 12.69999999999999929 ) ;
#275 = PERSON_AND_ORGANIZATION_ROLE ( 'creator' ) ;
#276 = APPROVAL_DATE_TIME ( #150, #222 ) ;
#277 = CARTESIAN_POINT ( 'NONE',  ( -1.614212418857619014, 1.555301434917138433E-15, -12.69999999999999929 ) ) ;
#278 = CALENDAR_DATE ( 2021, 5, 1 ) ;
#279 = FACE_OUTER_BOUND ( 'NONE', #47, .T. ) ;
#280 = VERTEX_POINT ( 'NONE', #166 ) ;
#281 = EDGE_LOOP ( 'NONE', ( #120, #35, #78, #103 ) ) ;
#282 = AXIS2_PLACEMENT_3D ( 'NONE', #334, #3, #310 ) ;
#283 = ORIENTED_EDGE ( 'NONE', *, *, #321, .F. ) ;
#284 = APPROVAL_PERSON_ORGANIZATION ( #172, #182, #330 ) ;
#285 = COORDINATED_UNIVERSAL_TIME_OFFSET ( 8, 0, .AHEAD. ) ;
#286 = CARTESIAN_POINT ( 'NONE',  ( -1.614212418857619014, 6.123233995736767268E-16, -5.000000000000000888 ) ) ;
#287 = DIRECTION ( 'NONE',  ( -1.000000000000000000, 0.000000000000000000, -0.000000000000000000 ) ) ;
#288 = ORIENTED_EDGE ( 'NONE', *, *, #162, .F. ) ;
#289 = FACE_OUTER_BOUND ( 'NONE', #171, .T. ) ;
#290 = AXIS2_PLACEMENT_3D ( 'NONE', #187, #213, #261 ) ;
#291 = FACE_OUTER_BOUND ( 'NONE', #281, .T. ) ;
#292 = EDGE_CURVE ( 'NONE', #122, #316, #34, .T. ) ;
#293 = DIRECTION ( 'NONE',  ( -1.000000000000000000, -0.000000000000000000, -0.000000000000000000 ) ) ;
#294 = CARTESIAN_POINT ( 'NONE',  ( -3.000000000000000000, 1.555301434917138433E-15, -12.69999999999999929 ) ) ;
#295 = CC_DESIGN_DATE_AND_TIME_ASSIGNMENT ( #106, #53, ( #247 ) ) ;
#296 = CARTESIAN_POINT ( 'NONE',  ( -3.000000000000000000, 5.000000000000000000, 0.000000000000000000 ) ) ;
#297 = FACE_OUTER_BOUND ( 'NONE', #304, .T. ) ;
#298 = CIRCLE ( 'NONE', #105, 5.000000000000000000 ) ;
#299 = CARTESIAN_POINT ( 'NONE',  ( -1.614212418857619014, 0.000000000000000000, 0.000000000000000000 ) ) ;
#300 = PRODUCT_DEFINITION_FORMATION_WITH_SPECIFIED_SOURCE ( 'ANY', '', #179, .NOT_KNOWN. ) ;
#301 = COORDINATED_UNIVERSAL_TIME_OFFSET ( 8, 0, .AHEAD. ) ;
#302 = EDGE_LOOP ( 'NONE', ( #208, #201, #76, #96 ) ) ;
#303 = DATE_TIME_ROLE ( 'classification_date' ) ;
#304 = EDGE_LOOP ( 'NONE', ( #252, #124, #186, #57 ) ) ;
#305 = PERSON_AND_ORGANIZATION_ROLE ( 'design_supplier' ) ;
#306 = ADVANCED_FACE ( 'NONE', ( #325 ), #273, .F. ) ;
#307 = DIRECTION ( 'NONE',  ( -1.000000000000000000, -0.000000000000000000, -0.000000000000000000 ) ) ;
#308 = CIRCLE ( 'NONE', #191, 12.69999999999999929 ) ;
#309 = EDGE_LOOP ( 'NONE', ( #144, #228 ) ) ;
#310 = DIRECTION ( 'NONE',  ( 0.000000000000000000, 0.000000000000000000, 1.000000000000000000 ) ) ;
#311 = DIRECTION ( 'NONE',  ( -1.000000000000000000, -0.000000000000000000, -0.000000000000000000 ) ) ;
#312 = AXIS2_PLACEMENT_3D ( 'NONE', #320, #65, #197 ) ;
#313 = PERSON_AND_ORGANIZATION ( #77, #219 ) ;
#314 = EDGE_CURVE ( 'NONE', #178, #280, #2, .T. ) ;
#315 = PLANE ( 'NONE',  #169 ) ;
#316 = VERTEX_POINT ( 'NONE', #224 ) ;
#317 = CARTESIAN_POINT ( 'NONE',  ( 3.000000000000000000, 1.555301434917138433E-15, -12.69999999999999929 ) ) ;
#318 = LINE ( 'NONE', #60, #258 ) ;
#319 = CARTESIAN_POINT ( 'NONE',  ( -1.614212418857619014, 0.000000000000000000, 0.000000000000000000 ) ) ;
#320 = CARTESIAN_POINT ( 'NONE',  ( 0.5000000000000004441, 0.000000000000000000, 0.000000000000000000 ) ) ;
#321 = EDGE_CURVE ( 'NONE', #280, #178, #308, .T. ) ;
#322 = AXIS2_PLACEMENT_3D ( 'NONE', #233, #287, #113 ) ;
#323 = AXIS2_PLACEMENT_3D ( 'NONE', #319, #10, #128 ) ;
#324 = PERSON_AND_ORGANIZATION ( #77, #219 ) ;
#325 = FACE_OUTER_BOUND ( 'NONE', #45, .T. ) ;
#326 = CARTESIAN_POINT ( 'NONE',  ( 0.5000000000000004441, 6.123233995736766282E-16, -5.000000000000000000 ) ) ;
#327 = DESIGN_CONTEXT ( 'detailed design', #89, 'design' ) ;
#328 = AXIS2_PLACEMENT_3D ( 'NONE', #132, #109, #87 ) ;
#329 = SECURITY_CLASSIFICATION ( '', '', #129 ) ;
#330 = APPROVAL_ROLE ( '' ) ;
#331 = CARTESIAN_POINT ( 'NONE',  ( 0.5000000000000004441, 0.000000000000000000, 5.000000000000000000 ) ) ;
#332 = ORIENTED_EDGE ( 'NONE', *, *, #69, .F. ) ;
#333 = UNCERTAINTY_MEASURE_WITH_UNIT (LENGTH_MEASURE( 1.000000000000000082E-05 ), #16, 'distance_accuracy_value', 'NONE');
#334 = CARTESIAN_POINT ( 'NONE',  ( -3.000000000000000000, 0.000000000000000000, 0.000000000000000000 ) ) ;
#335 = AXIS2_PLACEMENT_3D ( 'NONE', #71, #24, #146 ) ;
ENDSEC;
END-ISO-10303-21;
